Forum du site www.ukulele4ever.skyblog.c

Forum du site ukulele4ever pour tous les joueurs ou futur joueur du fantastique instrument appeller ukulele :)
 
AccueilAccueil  FAQFAQ  RechercherRechercher  S'enregistrerS'enregistrer  MembresMembres  GroupesGroupes  Connexion  

Partagez | 
 

 Nirvana - Smells Like Teen Spirit -

Voir le sujet précédent Voir le sujet suivant Aller en bas 
AuteurMessage
celpittie

avatar

Messages : 551
Date d'inscription : 11/08/2007
Age : 31
Localisation : Belgique

MessageSujet: Nirvana - Smells Like Teen Spirit -   Mer 2 Juil - 14:15

Salut salut...

Voila, je cherche les accords de Smells like teen spirit de Nirvana.

J'ai fait qq recherche, mais je n'ai que des indacations pour guitare, et aucun indice noté pour les accords qui y sont joué...


http://fr.youtube.com/watch?v=WEXh_HjqXa8%20;-)
Revenir en haut Aller en bas
Voir le profil de l'utilisateur http://ukulele4ever.skyrock.com/
lepticidou

avatar

Messages : 232
Date d'inscription : 03/02/2008
Age : 28
Localisation : Geneve

MessageSujet: Re: Nirvana - Smells Like Teen Spirit -   Mer 2 Juil - 17:56

moi je les connais, il me semble meme que sur ton sky j'ai mis les accors dans les coms sinon je te les passent demain.
Revenir en haut Aller en bas
Voir le profil de l'utilisateur http://ukulele.activebb.net/index.htm
celpittie

avatar

Messages : 551
Date d'inscription : 11/08/2007
Age : 31
Localisation : Belgique

MessageSujet: Re: Nirvana - Smells Like Teen Spirit -   Mer 2 Juil - 21:12

Shocked ah oué?

J'sais que sur on blog j'ai Nirvana - Come as you are...

Bé, j'vais regardé un peu plus alors.

Mais si d'ici là, j'donne pas de nouvel, c'est que j'n'aurais pas trouvé, et si tu as les accords sous la main j'les veux bien.

Very Happy
Revenir en haut Aller en bas
Voir le profil de l'utilisateur http://ukulele4ever.skyrock.com/
lepticidou

avatar

Messages : 232
Date d'inscription : 03/02/2008
Age : 28
Localisation : Geneve

MessageSujet: Re: Nirvana - Smells Like Teen Spirit -   Jeu 3 Juil - 18:40

voili voilou maintenant que j'ai récupérer mon uku je peut te passé la tabs XD

0---5---3---8
0---5---3---8
1---6---4---9
2---7---5---10

vala ^^

bon grattage.
Revenir en haut Aller en bas
Voir le profil de l'utilisateur http://ukulele.activebb.net/index.htm
alexann

avatar

Messages : 8
Date d'inscription : 07/01/2008
Age : 28
Localisation : Paris

MessageSujet: Re: Nirvana - Smells Like Teen Spirit -   Ven 4 Juil - 15:10

Pour la faire en version plus acoustique - dans le style Patti Smith sur l'album Twelve - tu peux utiliser les accords suivants :

Couplet:
Em / Am
G / C
Em / Am
G / C
Em / Am
Am / Em
Em / Am

Refrain :
Em / Am
G / C
....



Je ne sais pas si avec ces accords on est dans la tonalité originale....
Revenir en haut Aller en bas
Voir le profil de l'utilisateur
celpittie

avatar

Messages : 551
Date d'inscription : 11/08/2007
Age : 31
Localisation : Belgique

MessageSujet: Re: Nirvana - Smells Like Teen Spirit -   Mar 8 Juil - 22:50

Heeyyyy , merci bien pour vos renseignements. Very Happy
Revenir en haut Aller en bas
Voir le profil de l'utilisateur http://ukulele4ever.skyrock.com/
Shad



Messages : 4
Date d'inscription : 10/07/2008

MessageSujet: Re: Nirvana - Smells Like Teen Spirit -   Jeu 10 Juil - 4:29

Sur la video du Ukulele Orchestra of GB j'ai l'impression qu'ils jouent :

A: -0-
E: -0-
C: -1-
G: -2-

>>

A: -0-
E: -2-
C: -2-
G: -2-

>>

A: -3-
E: -0-
C: -0-
G: -0-

>>

A: -0-
E: -1-
C: -0-
G: -2-

Ah et en bonus, tiens, le solo Very Happy :

Code:

 
|--------6----6/8-------|
|-----8------------------|
|-------------------8----|
|------------------------|


-------6/8--6--4--3-----|-------3/4-3----1-------|-------1--1/3----------|
-------------------------|----------------------4--|------------------4--3--|
-------------------------|-------------------------|------------------------|
-------------------------|-------------------------|------------------------|


--------6----6/8-------|-------6/8--6--4--3-----|-------3/4-3----1-------|
-----8------------------|-------------------------|----------------------4--|
-------------------8----|-------------------------|-------------------------|
------------------------|-------------------------|-------------------------|



-------1--1/3----------|-----------------------|--------------------------|
------------------4--3--|-------4--3------4--3--|-------4--3----4/5-3--3--|
------------------------|-----------------------|--------------------------|
------------------------|-----------------------|--------------------------|



-----------------------|--------------------------|-----------------------|
--1----4--3------4--3--|-------4--3----4/5--3--3--|--1----4--3------4--3--|
-----------------------|--------------------------|-----------------------|
-----------------------|--------------------------|-----------------------|


 
--------------------------|-----------------------|------------------------|
-------4--3----4/5--3--3--|--1----4--3------4--3--|-------4--3----4--3--3--|
--------------------------|-----------------------|------------------------|
--------------------------|-----------------------|------------------------|
Revenir en haut Aller en bas
Voir le profil de l'utilisateur
celpittie

avatar

Messages : 551
Date d'inscription : 11/08/2007
Age : 31
Localisation : Belgique

MessageSujet: Re: Nirvana - Smells Like Teen Spirit -   Lun 8 Déc - 16:55

Changement d'adresse du FORUM

Poursuivons nos discussions sur http://ukulele4ever.forum-actif.net/
Revenir en haut Aller en bas
Voir le profil de l'utilisateur http://ukulele4ever.skyrock.com/
Contenu sponsorisé




MessageSujet: Re: Nirvana - Smells Like Teen Spirit -   

Revenir en haut Aller en bas
 
Nirvana - Smells Like Teen Spirit -
Voir le sujet précédent Voir le sujet suivant Revenir en haut 
Page 1 sur 1
 Sujets similaires
-
» bmw 635 csi spirit
» News - Black Belt Spirit Chronograph
» graining sur des spirit TP 303
» Ferrari 512 M Spirit
» Spirit Road

Permission de ce forum:Vous ne pouvez pas répondre aux sujets dans ce forum
Forum du site www.ukulele4ever.skyblog.c :: Ukulele :: Recherche de tablature-
Sauter vers: